Just another WordPress site

Don’t Get Me Wrong

dont get me wrong – the pretenders – acoustic

just done it from memory. haven’t got the record – don’t know the lyrics.
if you are playing acoustic emphasis the bass note and the b & g strings through out.
oh it sounds better with a capo on three aswell.

G(let ring) C


e-3-------------------------------------------------------|
b----------------1-0h1-1--1-0h1-1--1-0h1-1--1-0h1-1-------|
g---------------------------------------------------------|
d----------------2-2---2--2-2---2--2-2---2--2-2---2-------|
a-2--------------3-3---3--3-3---3--3-3---3--3-3---3-------|
E-3--------------x-x---x--x-x---x--x-x---x--x-x---x-------|

don’t get me wrong. if i sound over…
[Am]


e-------------------------------------|
b-1-0h1-1--1-0h1-1--1-0h1-1--1-0h1-1--|
g-2-2---2--2-2---2--2-2---2--2-2---2--|
d-2-2---2--2-2---2--2-2---2--2-2---2--|
a-------------------------------------|
E-x-x---x--x-x---x--x-x---x--x-x---x--|

familar………………….i see…

[F]


e-1-x---1--1-x---1--1-x---1--1-x---1------------|
b-1-0h1-1--1-0h1-1--1-0h1-1--1-oh1-1------------|
g-2-2---2--2-2---2--2-2---2--2-2---2------------|
d-3-3---3--3-3---3--3-3---3--3-3---3------------|
a-3-3---3--3-3---3--3-3---3--3-3---3------------|
E-x-x---x--x-x---x--x-x---x--x-x---x------------|

neon lights……………….whenever

[G]


e-3-3-3----------3-3-3----3--------------------|
b-3-3-3----------3-3-0----0--------------------|
g-4-4-4----------------------------------------|
d-5-5-5-5-5-5-0--------------------------------|
a-5-5-5-5-2-2-2--2-2-2----2--------------------|
E-x-x-x-3-3-3-3--3-2-3----3--------------------|

you walk……………….don’t get me….

brige comprises same chords. easy to work out.
comments? constructive critisism? edu002@bangor.ac.uk

.
.