Just another WordPress site

Doors (failed


-------------------------------------------------------------------------------

Doors (Now and then my life feels like it’s going nowhere) – Cog


-------------------------------------------------------------------------------

Tabbed by:Jarrah Harburn
Email:jarrah_h@hotmail.com

Tuning: Down 1 step + Drop D (CGCFAD)

(1:15)

This is the riff, not sure what its played on.


D|-----------------------3-----5-3---3--------5-----3-----5-3---3------------|
A|-------3h6-3h6-3h6-3h6---6-3-----6----6-3-----3h6---6-3-----6---6-3--------|
F|---------------------------------------------------------------------------|
C|---------------------------------------------------------------------------|
G|---------------------------------------------------------------------------|
C|---------------------------------------------------------------------------|

(INTRO)


D|----5-----3-----5-3---3-----------5-----3-----5-3---3----------------------|
A|------3h6---6-3-----6---6-3--------3h6---6-3-----6---6-3-------------------|
F|---------------------------------------------------------------------------|
C|---------------------------------------------------------------------------|
G|---------------------------------------------------------------------------|
C|---------------------------------------------------------------------------|

Im thinking, clean guitar,
very short delay interval at only a medium level.
“In time I will,
Change, I will”

“You know”


D|---------------------------------------------------------------------------| |
A|---------------------------------------------------------------------------| |
F|----------0-----------0-----------0-----------0----------------------------| |
C|----7---7---7---7---7---7---7---7---7---7---7---7--------------------------| |
G|------5-------5---5-------5---5-------5---5-------5------------------------| |
C|---------------------------------------------------------------------------| |

(RIFF 1)


D|---------------------------------------------------------------------------| |
A|---------------------------------------------------------------------------| |
F|----------0-----------0-----------------0-------------0--------------------| |
C|----8---8---8---8---8---8-----7h10---10---7-7h10---10---10-----------------| |
G|------5-------5---5-------5--------8-------------8-------------------------| |
C|---------------------------------------------------------------------------| |

(2:50)
Riff 1 is still playing, this guitar is clean.
Not sure if this is correct.


D|------5------------8-----------3-----------5------------8--------3---------|
A|------6------------10----------5-----------6------------10-------5---------|
F|------7------------X-----------X-----------7------------X--------X---------|
C|------7---0-----8--8---------3-3-----------7---0-----8--8-----3--3---------|

[1)]


G|-------------7------------------------------------7------------------------|
C|---------------------------------------------------------------------------|

Then back to just riff 1.
Then combine riff 1, with fill 1, and intro riff.

(4:48)

Distorted guitar.


D|-----------------------------------------------------------------------------|
A|---X--X----X--X----X--X-----X--X--------X--X----X--X----X--X--X--X--X--X--X--|
F|---X--X----X--X----X--X-----X--X--------X--X----X--X----X--X--X--X--X--X--X--|
C|---7--7----9--9----10-10----9--9---(2X)-7--7----9--9----10-10-10-10h12-12-10-|

[2)]


G|---5--5----7--7----8--8-----7--7--------5--5----7--7----8--8--8--8-h10-10-8--|
C|---0--0----0--0----0--0-----0--0--------0--0----0--0----0--0--0--0-h0--0--0--|
D|---------------------------------------------------------------------------|
A|---------------------------------------------------------------------------|
F|---------------------------------------------------------------------------|
C|---5-5-555-3-3-3-----------------------------------------------------------|
G|---5-5-555-3-3-3-----------------------------------------------------------|
C|---5-5-555-3-3-3-----------------------------------------------------------|

Play Riff 1 with the distorted guitar.

(5:27)


D|---------------------------------------------------------------------------|

|


A|----10p8-8-8h10--10p8-8-8h10--8h10-10-10-8-8-------------------------------|

|


F|---------------------------------------------------------------------------|

|


C|---------------------------------------------------------------------------|

|


G|---------------------------------------------------------------------------|

|


C|---------------------------------------------------------------------------|

|

|


A|---11p10-10-10h11--11p10-10-10h11--10h11-11-11-10-10-----------------------|

|


F|---------------------------------------------------------------------------|

|


C|---------------------------------------------------------------------------|

|


G|---------------------------------------------------------------------------|

|


C|---------------------------------------------------------------------------|

|
(RIFF 3)


D|---------------------------------------------------------------------------| |
A|----10p8-8-8h10--10p8-8-8h10--8h10-10-10-8-8-------------------------------| |
F|---------------------------------------------------------------------------| |
C|---------------------------------------------------------------------------| |
G|---------------------------------------------------------------------------| |
C|---------------------------------------------------------------------------| |
D|---------------------------------------------------------------------------| |
A|----11p10-10-10h11--11p10-10-10-10h13-13-13-10-10-13-13-13-----------------| |
F|---------------------------------------------------------------------------| |
C|---------------------------------------------------------------------------| |
G|---------------------------------------------------------------------------| |
C|---------------------------------------------------------------------------| |

Now palm mute and play distorted Riff 1.

“I, wait around the door, waited for something more,
trapped in a replay of yesterday.
You, you ain’t around at all, ” up not at all,
trapped in a replay.”

Play Riff 2.
(6:00)
“Shot down no warning,
Remix in the morning.”

Then repeat that progression.

“Stuttering, try to say something”
“Sending me out of my mind.”

Play Riff 3.
At the end of the that riff,
during the drum buildup play this palm muted:


D|---------------------------------------------------------------------------|
A|---------------------------------------------------------------------------|
F|----------0-----------0-----------------0-------------0--------------------|
C|----8---8---8---8---8---8-----7h10---10---7-7h10---10---10-----------------|
G|------5-------5---5-------5--------8-------------8-------------------------|
C|---------------------------------------------------------------------------|

“Stuttering, get it our,
try to say something”


D|---------------------------------------------------------------------------|
A|---------------------------------------------------------------------------|
F|---------------------------------------------------------------------------|
C|----7-7------------7-7------------7-7------7-7---9-9---10-10--9-9----------|
G|----5-5------------5-5------------5-5------5-5---7-7---8--8---7-7----------|
C|----0-0------------0-0------------0-0------0-0---0-0---0--0---0-0----------|

(7:19)
“Out of my mind”


D|---------------------------------------------------------------------------|
A|---------------------------------------------------------------------------|
F|---------------------------------------------------------------------------|
C|-----10-10101010-10101010-10s8-88888-8888-8s7-7777-7777-7s5-5555-5555------|

2X)


G|-----10-10101010-10101010-10s8-88888-8888-8s7-7777-7777-7s5-5555-5555------|
C|-----10-10101010-10101010-10s8-88888-8888-8s7-7777-7777-7s5-5555-5555------|

This part eludes me. Possibly based around this
progression.

“Out of my mind.”

“Over again and again its just
sending me out of..”


D|---------------------------------------------------------------------------|
A|---------------------------------------------------------------------------|
F|---------------------------------------------------------------------------|
C|----7---7------5---5------7----7------5---5--------------------------------|
G|----5---5------3---3------7----7------5---5--------------------------------|
C|----0---0------0---0------7----7------5---5--------------------------------|

Sounds like an acoustic.

“In time I will, change.
I will, change.”


D|---------------------------------------------------------------------------|
A|---------------------------------------------------------------------------|
F|---------------------------------------------------------------------------|
C|-5h7----5---5-5h7---5---5-5h7---5---5-5h7---7---7--------------------------|
G|------5---5-------5---5-------5---5-------5---5----------------------------|
C|---------------------------------------------------------------------------|
D|---------------------------------------------------------------------------|
A|---------------------------------------------------------------------------|
F|---------------------------------------------------------------------------|
C|---7h8---8---8-7h8--8---8--7h8---8---8-7h8---8---8-------------------------|
G|-------5---5-------5--5--------5---5-------5---5---------------------------|
C|---------------------------------------------------------------------------|
D|---------------------------------------------------------------------------|
A|---------------------------------------------------------------------------|
F|---------------------------------------------------------------------------|
C|-5h7----5---5-5h7---5---5-5h7---5---5-5h7---7---7--------------------------|
G|------5---5-------5---5-------5---5-------5---5----------------------------|
C|---------------------------------------------------------------------------|
D|---------------------------------------------------------------------------|
A|---------------------------------------------------------------------------|
F|---------------------------------------------------------------------------|
C|---7h8---8---8-7h8--8---8---7h10---10---10--7h10---10---10-----------------|
G|-------5---5-------5--5----------8----8----------8----8--------------------|
C|---------------------------------------------------------------------------|

The intro riff comes back in again,
and finishes the song by itself.

| s slide
| h hammer-on
| p pull-off
| ~ vibrato
| + harmonic
| x Mute note

Chords List
.
.