Just another WordPress site

Happen Now

L[C]ean on in, and let me b[F]end your ear
I heard a l[C]ittle love, would go a l[F]ong way here
If I c[C]ould, I’d get l[F]ost tonight
In the d[C]eep dark woods, under the n[F]eon light

Fill (x2):


|---15--------------------------------------------|
|--------17-15-17---------------------------------|
|-------------------17-17----14-------------------|
|-------------------------17----14-17-14----------|
|----------------------------------------17-15-15-|
|-------------------------------------------------|
|------------------------------------|
|------------------------------------|
|------------------------------------|
|------------14----------------------|
|---------------15-17-14-15-14-------|
|-17-15-17---------------------17-15-|

When your light turned green, and the lamp got lit
I made my first mistake, and man I paid for it

Chorus:

[C]What do you want me to d[G]o,
To make it h[F]appen now, happen now
[C]What do you want me to do[G],
To make it h[F]appen now, happen now

Fill (x2)

All my life, man I’ve been running scared
When I turn around, I don’t see nobody there

Solo:

[Am] [F]


|------------------------------------------3---1-----------------|
|---------------------5----------------------------3-----1-0-----|
|----5--7b9r7-5-4-5-7---7-5-4---------------0---0---0--------2-0-|
|-7---------------------------5--------3-----3---3---3-----------|
|-------------------------------5----3---3-----------------------|
|----------------------------------------------------------------|

[Am] [F]


|-----------------------------------------3---1---------------|
|-----8---------------8---------------1------------3p1p0---0--|
|---5---7b9r7-5-4-5-7---7p5p4----------0---0---0---------2----|
|-7---------------------------5-5-------3---3---3-------------|
|---------------------------------5-3-------------------------|
|-------------------------------------------------------------|

Bridge:
To b[C]e alone, to c[Am]ome undone
To b[Fmaj7]e the one, to b[F]e with you
To b[C]e alone, to c[Am]ome undone
To b[Fmaj7]e the one, to [F]be with you

Chorus (x2)

Fill (x2)

Fmaj7: 133210 or x33210

Chords List
.
.