Just another WordPress site

In Loving Kindness

Band: Zao
Song: In Loving Kindness
Album: All Else Failed (2003 album)

I’m not positive if this is how you play the song, but this is how i do.

This is played in Drop D
From the thick string to skinny
D A D G B e

[Legend]
s Slide to fret
Slide down the neck
X Anything BETWEEN X means palm mute(with hand plucking strings)
rb Rapidly Bend
^ Talking about the above tab
~ – Let note ring

WE ARE A….
[Intro]
0:02


e|-----------------|---------------------------------|
B|-----------------|---------------------------------|
G|-----------------|------------------5-4rb----------|
D|-1-1--4s5~--5s7-|-1-1--4s5~--5s7--------X1-1-1X-1|
A|-1-1--4s5~--5s7-|-1-1--4s5~--5s7--------X1-1-1X-1|
D|-1-1--2s3~--3s5-|-1-1--2s3~--3s5--------X1-1-1X-1|

[The Bass Interlude]
0:34
THANK YOU FOR THE CROSS….!
0:45


e|-------------------------------------|
B|-------------------------------------|
G|-------------------------------------|
D|-X1-1-1-1-1-1-1-1-1-1-1-1-1-1-1-1X-1-|
A|-X1-1-1-1-1-1-1-1-1-1-1-1-1-1-1-1X-1-|
D|-X1-1-1-1-1-1-1-1-1-1-1-1-1-1-1-1X-1-|

[^^^^^^^^^17 Times you strum^^^^^^^^^^]

0:50 [ 1:05 ][ 1:10 ]


e|------------------------|------------------------------------------------|
B|------------------------|------------------------------------------------|
G|------------------------|------------------------------------------------|
D|-----------9-7-9-10-9-7-|-9-7-9-10-9-7-----------------------------------|
A|-----------7-5-7-9--7-5-|-7-5-7-9--7-5-7h8p7h8p7h8p7h8p7h8p7h8p7h8p7h8p7-|
D|-X-0-X------------------|------------------------------------------------|

[Strum the 0 rapidly( [ This is then played ]
listen for how many times
its strummed)]

INHALE, EXHALE THIS….!
[Bridge]
1:11


e|-----------------|
B|-----------------|
G|-----------------|
D|-1--1--1-X1111X--|
A|-1--1--1-X1111X--|
D|-1--1--1-X1111X--|

[^^^^^This begins to
speed up a little at
1:16]

1:25


e|-------------------------|
B|-------------------------|
G|-------------------------|
D|-X1--1--1--1---1--1--1---|
A|-X1--1--1--1---1--1--1---|
D|-X1--1--1--1---1--1--1---|

[^^This whole thing is
palm muted]

1:38


e|------------------------|
B|------------------------|
G|------8h9p8-------------|
D|------------------8h9p8-|
A|------------------------|
D|-X00X-------X00X--------|

[^^^^Play that 4 times^^^^^]

1:44


e|-----------------------------------------|
B|-----------------------------------------|
G|----------------8h9p8--------------------|
D|-8-9p8-6-8-9-8----------8-9p8-6-8-9-8-6~-|
A|-----------------------------------------|
D|-----------------------------------------|

That is all I’ve figured out
Questions?
Comments?
I suck?

LAWLIET107@gmail.com

http://www.myspace.com/zao

Chords List
.
.