Just another WordPress site

La La Love You

LA LA LOVE YOU – THE PIXIES

(Lyrics) Shake Your Butt (But not too hard)
REPEAT SILENCE ABOVE TWO TIMES
(Guitar1) –


e ---------------------------------------------------------------------
B ------------8---8b9(hold)-----8---------------------8---9b10~~~~~----
G -----7--10-----------------------10---7---7----10--------------------
D ---------------------------------------------------------------------
A ---------------------------------------------------------------------
E ---------------------------------------------------------------------

(Guitar2) –

(Lyrics) –

(Guitar1)-


e -------------------------------------------------------------10~~~~~~
B ------------8---8b9(hold)--8b9--8---------------------8---9----------
G -----7--10--------------------------10---7---7---10------------------
D ---------------------------------------------------------------------
A ---------------------------------------------------------------------
E ---------------------------------------------------------------------

(Guitar2)- A

(Lyrics)-

(Guitar1)-


e -----------------------------------------------
B -----------------8~~~~~~~--------7~~~~~~~------
G -------------------------7~~~~~~~--------------
D -----7---7-------------------------------------
A ---9---9---9-----------------------------------
E -----------------------------------------------

(Guitar2)-
D A Em Bm D(Expect for third time)
(Lyrics)-
(Whi – Stle) Yeah
REPEAT ABOVE THREE TIMES
(Guitar1)-

(Guitar2)-
(Lyri[G]cs)-[A][D][E]
I love you I love you I love you I do

(Guitar1)-


e --------------------------------10d9-----------
B -----------------------------------------7d6---
G -----------------------------------------------
D -----------------------------------------------
A -----------------------------------------------
E -----------------------------------------------

(Guitar2)-
(Lyri[G]cs)-[A][D]
I Love You

(Guitar1)-


e -----------------------------------------------
B -----------------8~~~~~~~--------7~~~~~~~------
G -------------------------7~~~~~~~--------------
D -----7---7-------------------------------------
A ---9---9---9-----------------------------------
E -----------------------------------------------

(Guitar2)-
D A Em Bm D(Expect for third time)
(Lyrics)-
All I’m Saying Pretty Bab-
-y La La Love Ya Don’t Mean May
-be All I’m Saying Pretty Bab-
REPEAT ABOVE THREE TIMES (Lyrics Once)
(Guitar1)-


e ---------------------------------------------------------------------
B ---------------------------------------------------------------------
G ---------------------------------------------------------------------
D ---11h12h13-12h13h14-13h14h15-14h15h16-15h16h17-16h17h18-17h18h19----
A ---------------------------------------------------------------------
E ---------------------------------------------------------------------

(Guitar2)-
(Lyri[G]cs)-
-y (1rst Base) (Second Base) (Third Base) (Home Run)

(Guitar1) –


e ------------------------------------------------------------10-------
B ------------8---8b9(hold)-----8---------------------8---9------------
G -----7--10-----------------------10---7---7----10--------------------
D ---------------------------------------------------------------------
A ---------------------------------------------------------------------
E ---------------------------------------------------------------------

(Guitar2) –
(Lyrics[Dm]) -[A#][A][Dm][A#][A]

(Guitar1)-


e -----------------------------------------------
B -----------------8~~~~~~~--------7~~~~~~~------
G -------------------------7~~~~~~~--------------
D -----7---7-------------------------------------
A ---9---9---9-----------------------------------
E -----------------------------------------------

(Guitar2)-
D A Em Bm D(Expect for third time)
(Lyrics)-
(Whi – Stle) Yeah
REPEAT ABOVE THREE TIMES
(Guitar1)-

(Guitar2)-
(Lyri[G]cs)-[A][D][E]
I love you I love you I love you I do

(Guitar1)-


e ---5~~~~~~~~~-----------------7s8s9s10---------
B -----------------8~~~~~~~~---------------------
G -----------------------------------------------
D -----------------------------------------------
A -----------------------------------------------
E -----------------------------------------------

(Guitar2)-
(Lyri[G]cs)-[A][D][Dm]
I Love You

(Guitar1)-


e ---------------------------------------------------
B ---------------------------------------------------
G ----7--7--7--6----7-----7-7-7-6----7--7--7-7-7-6---
D ---------------------------------------------------
A ---------------------------------------------------
E ---------------------------------------------------

(Guitar2)-
(Lyri[Dm]cs)-[A#][A][Dm][A#][A][Dm][A#][A]

(Guitar1)-


e -----------------------------------------------
B -----------------8~~~~~~~--------7~~~~~~~------
G -------------------------7~~~~~~~--------------
D -----7---7-------------------------------------
A ---9---9---9-----------------------------------
E -----------------------------------------------

(Guitar2)-
D A Em Bm D(Expect for third time)
(Lyrics)-
All I’m Saying Pretty Bab-
-y La La Love Ya Don’t Mean May
-be All I’m Saying Pretty Bab-
-y La La Love Ya Don’t Mean May
-be All I’m Saying Pretty Bab-
-y La La Love Ya Don’t Mean May
-be All I’m Saying Pretty Bab-
REPEAT ABOVE SEVEN TIMES (Lyrics Once)
(Guitar1)-

(Guitar2)-
(Lyri[D]cs)-[A][Em][Bm][D]
-y La La Love Ya Don’t Mean May

(Guitar1)-

(Guitar2)-

(Lyrics)-
-be All I’m Saying Pretty Baby

Chords List
.
.