Just another WordPress site

Nel mio letto

SOLO UN GRANDE SASSO

Verso:
[C] [Am] [G] [Dm] [Am] [Dm] [G]


E|--0---0---3---------1---0-------1---------3---|
B|--1---1---3---------3---1-------3---------3---|
G|--0---2---0---------2---2-------2---------0---|
D|--2---2---0---------0---2-------0---------0---|
A|--3---0---2---------0---0-------0---------2---|
E|--0---0---3---------0-----------0---------3---|

… me-meglio……che ci sia…un’ora in pi

[C] [Am] [G] [Dm] [Am] [Dm] [G]


E|--0---0---3---------1---0-------1--------------3---|
B|--1---1---3---------3---1-------3--------------3---|
G|--0---2---0---------2---2-------2--------------0---|
D|--2---2---0---------0---2-------0--------------0---|
A|--3---0---2---------0---0-------0--------------2---|
E|--0---0---3---------0-----------0--------------3---|

…io…dormo……e giudico…..le ombre su di noi

Ritornello:
[Am] [G] [C] [Am] [G] [C] [D] [C]


E|--0--------3------0-----------0--------3-------0--------0------0---|
B|--1--------3------1-----------1--------3-------1--------3------1---|
G|--2--------0------2-----------2--------0-------2--------4------2---|
D|--2--------0------3-----------2--------0-------3--------5------3---|
A|--0--------2------3-----------0--------2-------3--------5------3---|
E|--0--------3------0-----------0--------3-------0--------0------0---|

…e non ho…pi fretta….e non ho pi fretta perch ho paura

Verso: cambiano solo le parole
[C] [Am] [G] [Dm] [Am] [Dm] [G]


E|--0---0---3---------1---0-------1---------3---|
B|--1---1---3---------3---1-------3---------3---|
G|--0---2---0---------2---2-------2---------0---|
D|--2---2---0---------0---2-------0---------0---|
A|--3---0---2---------0---0-------0---------2---|
E|--0---0---3---------0-----------0---------3---|

Ritornello:
[Am] [G] [C] [Am] [G] [C] [D] [C]


E|--0--------3------0-----------0--------3-------0--------0------0---|
B|--1--------3------1-----------1--------3-------1--------3------1---|
G|--2--------0------2-----------2--------0-------2--------4------2---|
D|--2--------0------3-----------2--------0-------3--------5------3---|
A|--0--------2------3-----------0--------2-------3--------5------3---|
E|--0--------3------0-----------0--------3-------0--------0------0---|

…e non ho…pi fretta….e non ho pi fretta perch ho paura

Assolo:
L’assolofatto con un effetto che non so distinguere, cmq spero che con
ua distorsione normale vada bene lo stesso come l’ho scritto.


E|---------------------------------------------------------------|
B|-----------15--13--13/15/13------------------------------------|
G|------------------------------10h9--10/12/10-------------------|
D|---12^^---------------------------------------12--10--9--10----|
A|---------------------------------------------------------------|
E|---------------------------------------------------------------|
E|----------------------------------------------------------------|
B|----------------------------------------------------------------|
G|----------------------------------------------------------------|
D|--10/12--12/14--14/15--15/17--17/19-19^--19^--19^--19^--19^-----|
A|----------------------------------------------------------------|
E|----------------------------------------------------------------|
E|-----------------------------------------------------------------------------------------|
B|-----------------------------------------------------------------------------------------|
G|-----------------------------------------------------------------------------------------|
D|-------10h12h10-----10h12h10-----10h12h10------10------9-10-9--10--12--13^^^^^^------10--|
A|---12-----------12-----------12------------12------10----------------------------12------|
E|-----------------------------------------------------------------------------------------|

Ritornello:
[Am] [G] [C] [Am] [G] [C] [D] [C]


E|--0--------3------0-----------0--------3-------0--------0------0---|
B|--1--------3------1-----------1--------3-------1--------3------1---|
G|--2--------0------2-----------2--------0-------2--------4------2---|
D|--2--------0------3-----------2--------0-------3--------5------3---|
A|--0--------2------3-----------0--------2-------3--------5------3---|
E|--0--------3------0-----------0--------3-------0--------0------0---|

…e non ho…pi fretta….e non ho pi fretta perch ho paura

Chords List
.
.