Just another WordPress site

She Didn’t Know

Date: Sat, 30 Sep 1995 15:07:50 -0230 (NDT)
From: Rod Nolan
Subject: The Tragically – Hip She Didn’t Know

The Tragically Hip / She Didn’t Know
Transcribed by Rod Nolan / rodn@morgan.ucs.mun.ca

Intro
guitar 1 plays:


E|----------|----------|----------|----------|
B|----------|----------|----------|----------|
G|----------|---0--0---|---0--0---|---0--0---|
D|---2---2--|--2-2--2--|--4-4--4--|--2-2--2--|
A|0-0-0-0--0|-3---3--3/|-5---5--5|-3---3--3-|
E|----------|----------|----------|----------|
|---pm---| slide slide

guitar 2 joins in strumming:
[Am] [C] [G] [F]


E|----------|----------|----------|----------|
B|----------|----------|----------|----------|
G|----------|---0--0---|---0--0---|---0--0---|
D|---2---2--|--2-2--2--|--4-4--4--|--2-2--2--|
A|0-0-0-0--0|-3---3--3/|-5---5--5|-3---3--3-|
E|----------|----------|----------|----------|
|---pm---| slide slide

and Gord comes in with:
Yeah -eah Oh Yeah

[Am] [C] [G] [F]


E|----------|----------|----------|----------|
B|----------|----------|----------|----------|
G|----------|---0--0---|---0--0---|---0--0---|
D|---2---2--|--2-2--2--|--4-4--4--|--2-2--2--|
A|0-0-0-0--0|-3---3--3/|-5---5--5|-3---3--3-|
E|----------|----------|----------|----------|
|---pm---| slide slide

Chorus:
She didn’t [Am]know[G]
the barrel was loaded

She didn’t [Am]know[G]
the barrel was loaded

She didn’t [Am]know[G]
the barrel was loaded

She didn’t [F]know well how could she [Am]know

Solo:
anyone?
[Am] [C] [G] [F]


E|----------|----------|----------|----------|
B|----------|----------|----------|----------|
G|----------|----------|----------|----------|
D|----------|----------|----------|----------|
A|----------|----------|----------|----------|
E|----------|----------|----------|----------|

Well here’s a place to start. Corrections and additions are not only
welcome, they are needed and wanted.

Rod Nolan
rodn@morgan.ucs.mun.ca
http://www.ucs.mun.ca:80/~rodn/

Chords List
.
.