Just another WordPress site

The Day Brings

Sent: Wednesday, December 31, 1997 11:52 AM

Song: The Day Brings
Artist: Brad
Source: (from album ‘Interiors’)

The song is almost completely based on the chord-pattern:
C C/B Am G F Em F G.
C/B 032000

intro: C C/B Am G F Em F G 2x

[C]Hold up [C/B]your end [Am] And I’ll hold up [G]mine
[F]Dancin’ all the[Em] time [F]Dancin’ all the[G] time
And [C]too late f[C/B]ather [Am] You know that that’s for [G]sure
You [F]never find a [Em]way [F]Never find a [G]way

So gather around And see what the day brings
And see what makes you laugh And see what makes you sing
And never, nevermind The thing that people say
You’ll never go away You’ll never go away

[C]Who knows where the [C/B]storm will take us
[Am]Who knows when the [G]pain will break us
[F]When will all the [Em]G’s be given
[F]Another chance to [G]live in freedom
( Tab from: http://www.guitartabs.cc/tabs/b/brad/the_day_brings_tab.html )
Hey now
Get your heart, get your heart Off of the shelf
Make the grey sky blue Yeah, I’m talkin to you
And nevermind The sick and the afraid
Askin’ out today to see a brighter day

So gather around And see what the day brings
And see what makes you laugh And see what makes you sing
And never, nevermind The thing that people say
You’ll never go away You’ll never go away

Who knows where the storm will take us
Who knows when the pain will break us
When will all the G’s be given
Another chance to live in freedom

solo over Am Em F G

So gather around
And see what the day brings And see what makes you laugh riff1
And see what makes you sing And never, nevermind riff1
The thing that people say You’ll never go away riff1

You’ll never go away So gather around
And see what the day brings See what makes you laugh
And what makes you sing

solo:
h hammer on
p pull-off
b bend
s slide

h p h p


E--7^8--8--8^7----7-7----7^8--8--8^7----7-7-------|
B--------------10--------------------10-----------|
G-------------------------------------------------|
D-------------------------------------------------|
A-------------------------------------------------|
E-------------------------------------------------|

b h h s


E--9^10---8-----------------------------------12--|
B-----------12-10-10^12-10--8-8^10-10---8^10------|
G-------------------------------------------------|
D-------------------------------------------------|
A-------------------------------------------------|
E-------------------------------------------------|

riff1:


--12-10-----------------12-10---------|
---------12^10-8^10-8---------12^10---|
--------------------------------------|
--------------------------------------|
--------------------------------------|
--------------------------------------|
------------------

stefan nijenhuis
stefan11@worldaccess.nl
stefan11@wxs.nl

Chords List
.
.